Make your own free website on Tripod.com

Voice(intro)
by L'arc~en~ciel
words:hyde
music:ken
tabs:alvin lee




----11---11---11---11---11---9---8---11---9---8---11---13---13
----------------------------------------------------------
-----------------------------------------------------------
-----------------------------------------------------------
-----------------------------------------------------------
----------------------------------------------------------
-----------------------------------------------------------



----11---11---11---11---11---9---8---11---9---8-----------
--------------------------------------------------9------
--------------------------------------------------------
--------------------------------------------------------
--------------------------------------------------------
-------------------------------------------------------



----11---11---11---11---11---9---8---11---9---8---11---11---13---16---16---16---16---15---13---11---15---13----
-----------------------------------------------------
---------------------------------------------------
---------------------------------------------------
-------------------------------------------------
-------------------------------------------------



----11---11---11---11---11---9---8---11---9---8---11---13---13
----------------------------------------------------------
-----------------------------------------------------------
-----------------------------------------------------------
-----------------------------------------------------------
----------------------------------------------------------
-----------------------------------------------------------



----11---11---11---11---11---9---8---11---9---8-----------
--------------------------------------------------9------
--------------------------------------------------------
--------------------------------------------------------
--------------------------------------------------------
-------------------------------------------------------



----11---11---11---11---11---9---8---11---9---8---11---11---13---13---13---11--11
-----------------------------------------------------------------------------------13---11---9