Make your own free website on Tripod.com

Snow Drop
INTRO:
E|---14--14---------------------------------------------------------------
B|-----------17--17--14--14--14--14-15-17-15--17-15--17-15--14-15-17-15-14
G|-14--14--14--14--14--14--14--14-----------------------------------------
D|------------------------------------------------------------------------
A|------------------------------------------------------------------------
E|------------------------------------------------------------------------
E|-9s17-17~-14-15-17~--21-21-21s19-14~--21-21-21s19-14-19p14-14--------------------------
B|-------------------------------------------------------------15~-15h17-17~-17-17h19-19~
G|---------------------------------------------------------------------------------------
D|---------------------------------------------------------------------------------------
A|---------------------------------------------------------------------------------------
E|---------------------------------------------------------------------------------------
-17-17-14------------------17--15~----------------------------------
----------------------------------