Make your own free website on Tripod.com

Niji
(From The forth Ave Cafe)
Intro Solo:

E|----------------------------------
B|-------0------------0-------------
G|------0--0---------0--0-----------
D|----4-----4---4---4-----4---4-----
A|--7---------7---5---------5-------
E|----------------------------------

E|------------------------------------
B|-------2------------------232-------
G|-----2---2-----------2--------2-----
D|---2-------2---2---2---2--------2---
A|-4-----------4---0------------------
E|------------------------------------

E|--------2---------------2---------------
B|------3---3-----------3---3---------4---
G|----2-------2---2---2-------2---2---4---
D|--0-----------0---------------------4---
A|------------------3-----------3-----2---
E|----------------------------------------

toki wa kana

de te
E|----------------------------------
B|-------0------------0-------------
G|------0--0---------0--0-----------
D|----4-----4---4---4-----4---4-----
A|--7---------7---5---------5-------
E|----------------------------------

omoi wa a
E|------------------------------------
B|-------2------------------232-------
G|-----2---2-----------2--------2-----
D|---2-------2---2---2---2--------2---
A|-4-----------4---0------------------
E|------------------------------------

hu re ru
E|--------2---------------2---------------
B|------3---3-----------3---3-------------
G|----2-------2---2---2-------2---2-------
D|--0-----------0-------------------------
A|------------------3-----------3---------
E|----------------------------------------

to gi re so u
E|-------2---------------------------------
B|-----3---3---------------454-------------
G|----2------2---2-----4-------4-----------
D|-------------------4---4-------4---------
A|--2----------2---2-----------------------
E|-----------------------------------------

na ho do
E|--------0-------0-------0------------------
B|--------0-------0-------0-----------------
G|--------0-------0-------0------------------
D|--------2-------2-------2------------------
A|----------------------------------------
E|-0---------------------------------------


tou me i na ko
E|----------------------------------------
B|-2---2--232----2---2----232----------------------
G|-2---------2---2---2-------2----------------
D|-2--2----------2---2------------------------
A|-0---------------------------------------
E|---------------3---3----------------------


e ni
E|-----------------x--x--5----------------
B|---------2--2----x--x--5-----2----------
G|---------2--2----------2-----2----------
D|---------2--2----------2-----2----------
A|----------------------------------------
E|--2---2---------------------------------

a ru ki
E|----------------------------------------
B|-4---4---4---5---5---4---4---4----------
G|-4---4---4---4---4---4---4---4----------
D|-4---4---4---4---4---4---4---4----------
A|----------------------------------------
E|----------------------------------------

da shi ta
E|-----------0---0--0--0----------------------
B|-----------0---0--0--0---------------------
G|-----------0---0--0--0---------------------
D|-----------2---2--2--2----------------------
A|-------------------------------------------
E|-0---0--0----------------------------------

(stairway to heaven)
so no hi
E|----------------------------------------
B|---------------------------------------
G|-------9--9--797-6--0-------------------
D|---5-4----------------------------------
A|---------------------------------------
E|-5--------------------------------------

to mi e
E|----------------------------------------
B|---------------------------------------
G|---------------------------------------
D|--7---7--7--7---7-7-7-7-----------------
A|--5---5--5--5---5-5-5-5------------------
E|----------------------------------------

(labyrinth to heart)
ha shi te
E|----------------------------------------
B|---------------------------------------
G|---------------------------------------
D|----5--4-------4--------------------------
A|----------5--5---5------------------------
E|--3-----------------0---------------------

nai mi ra
E|-------0----0--0--0--0-----------------------
B|-------0----0--0--0--0----------------------
G|-------0----0--0--0--0----------------------
D|-------2----2--2--2--2-----------------------
A|--2--------------------------------------
E|--0-------------------------------------

i ga tsuzui te ru hontou wa
E|---------------------------10----------10---------
B|-2--2--2--3--3--2--2----------10----------10------
G|-2--2--2--2--2--2--2--2--11------11--12------11---
D|-2--2--2--2--2--2--2------------------------------
A|-0--0--0--0--0--0--0------------------------------
E|--------------------------------------------------

-----------------***---------------------

1. totemo ko ko
2. omou a na
E|-------------2----------------0-----------
B|--------3------3---------2------2---------
G|------4----4-----------2----2-------------
D|----24--------------02--------------------
A|------------------0-----------------------
E|--3---------------------------------------

1. wa moroku dare mo ga
2. no koto o kisetsu ga
E|-------------0---------------------------
B|---------0-----0---5-----5--4----------------
G|-------2---2---------4--------4---4-----------
D|----02-----------------4--------4------------
A|----------------------------------------
E|--2--------------------------------------

1.) hi bi wa te i ru fu ri da
2.) nagare teiteru me o to
E|-------------0---------------------------
B|---------0-----0---5-----5--4----------------
G|-------2---2---------4--------4---4-----------
D|----02-----------------4--------4------------
A|----------------------------------------
E|--2--------------------------------------

1.) shi ta ame ni me
2.) ji te itsumo mi
E|--x--x---7------x--x--x-----------------------
B|--x--x---8------x--x--x----------------------
G|---------------------------------------
D|----------------------------------------
A|----------------------------------------
E|----------------------------------------

1.) re te ki mi wa ma da ta chi do ma
2.) te ta fuu ke i no you ni na
E|--x--x--x---9-----x--------x---x--x----x---x---x-------
B|--x--x--x---10----x--------x---x--x----x---x---x-------
G|---------------------------------------------------
D|---------------------------------------------------
A|---------------------------------------------------
E|---------------------------------------------------


1.)(ma)tte shi mau ke do shinji
2.) n do me ka no a me
E|----------------------------3-------3--------
B|-----------5-4-------------------3-----3-------
G|---------------4---4-----------------------4--
D|-----------------4-----------------------5----
A|----------------------5--5--------------------
E|----------------------3--3--------------------

1.)teku re ru ka ra
2.)mo a ga tt a

E|-----------------------2--2--2--2--2--2-------
B|-----5---5--5----------3--3--3--3--3--3---------
G|---6---6-----6---------2--2--2--2--2--2---------
D|----------------7--x-x-0--0--0--0--0--0--4---2-----
A|-------------------x-x---------------------------
E|-------------------------------------------------

1.) da re yo ri ta
2.) se tsu nai hi
E|----------------------------------------
B|---------------------------------------
G|---------------------------------------
D|--1--1----1---1---4-4-4-4--7-7-7-4------------------
A|--2--2----2---2---6-6-6-6----------------------
E|----------------------------------------

-------------###---------------

1.) ka ku
2.) to yo
3.) de te
E|----------------------------------
B|-------0------------0-------------
G|------0--0---------0--0-----------
D|----4-----4---4---4-----4---4-----
A|--7---------7---5---------5-------
E|----------------------------------

1.) so ra e to chi
2.) ka na wa nu ne
3.) o mo i wa a
E|------------------------------------
B|-------2------------------232-------
G|-----2---2-----------2--------2-----
D|---2-------2---2---2---2--------2---
A|-4-----------4---0------------------
E|------------------------------------

1.) ka zu ku
2.) ga i yo
3.) fu re ru
E|--------2---------------2---------------
B|------3---3-----------3---3-------------
G|----2-------2---2---2-------2---2-------
D|--0-----------0-------------------------
A|------------------3-----------3---------
E|----------------------------------------

1.) ka ga ya ki o
2.) na ze ko no me
3.) to gi re so u
E|-------2---------------------------------
B|-----3---3---------------454-------------
G|----2------2---2-----4-------4-----------
D|-------------------4---4-------4---------
A|--2----------2---2-----------------------
E|-----------------------------------------

1.)a tsu me
2.)ne ka ra
3.)na ho do
E|--------0-------0-------0------------------
B|--------0-------0-------0-----------------
G|--------0-------0-------0------------------
D|--------2-------2-------2------------------
A|----------------------------------------
E|-0---------------------------------------

1.) hi ka ri o mo
2.) a i wa u ma
3.) toumei i na ko
E|----------------------------------------
B|-2---2--232----2---2----232----------------------
G|-2---------2---2---2-------2----------------
D|-2--2----------2---2------------------------
A|-0---------------------------------------
E|---------------3---3----------------------

1.) to me
2.) re te
3.) e ni
E|---------------x--x--5---5--5--x-x--------
B|---------2-----x--x--5---5--5--x-x-------
G|---------2-----------2---2--2----------
D|---------2-----------2---2--2----------
A|----------------------------------------
E|--2---2---------------------------------

1.) ru mo e tsu
2.) yu ku sa ki mi
3.) a ru ki
E|----------------------------------------
B|-4---4---4---5---5---4---4---4----------
G|-4---4---4---4---4---4---4---4----------
D|-4---4---4---4---4---4---4---4----------
A|----------------------------------------
E|----------------------------------------

1.)ki te mo
2.)da re ta
3.)da shi ta
E|-----------0---0--0--0----------------------
B|-----------0---0--0--0---------------------
G|-----------0---0--0--0---------------------
D|-----------2---2--2--2----------------------
A|-------------------------------------------
E|-0---0--0----------------------------------


(stairway to heaven)
1.) ka ma wa
2.) ha na wa
3.) so no hi
E|----------------------------------------
B|---------------------------------------
G|-------9--9--797-6--0-------------------
D|---5-4----------------------------------
A|---------------------------------------
E|-5--------------------------------------

1.) na i sa
2.) yu re te
3.) to mi e
E|----------------------------------------
B|---------------------------------------
G|---------------------------------------
D|--7---7--7--7---7-7-7-7-----------------
A|--5---5--5--5---5-5-5-5------------------
E|----------------------------------------

(labyrinth to heart)
1.) su be te
2.) shi zun
3.) o wa ra
E|----------------------------------------
B|---------------------------------------
G|---------------------------------------
D|----5--4-------4--------------------------
A|----------5--5---5------------------------
E|--3-----------------0---------------------

1.)wa shinji
2.)da da i
3.)nai mi ra
E|-------0----0--0--0--0-----------------------
B|-------0----0--0--0--0----------------------
G|-------0----0--0--0--0----------------------
D|-------2----2--2--2--2-----------------------
A|--2--------------------------------------
E|--0-------------------------------------

^----------###--------^

1.)tsu to to mo ni ar u
2.)chi ni fu ri so
E|--------------------------------2--2--2--3--3-3--2--2---
B|-2---2---2---3---3---2--2--2----3--3--3--3--3-3--3--3----
G|-2---2---2---2---2---2--2--2----2--2--2--2--2-2--2--2-----
D|-2---2---2---2---2---2--2--2----0--0--0--0--0-0--0--0----
A|-0---0---0---0---0---0--0--0----------------------------
E|---------------------------------------------------------

^---------------------***------------------------^
Ah.....
E|-14--14----15--14--14---17---17--17--14--15--14--------------
B|-15--15----14--15--15---15---15--15--15--15--15------------
G|-14--14----15--14--14---14---14--14--14--14--14-----------
D|---------------------------------------------------------
A|-----------------------------------------------------------
E|-----------------------------------------------------------

shounen wa hi to no kage ni
E|-------------------------------------------------------------
B|-------------------------------------------------------------
G|--------------------------------------------------------------
D|--3-3--3-3--5--5-5-5--5--5-5--7--7--7-7--7-7-7-7-7-7-7--------
A|--1-1--1-1--3--3-3-3--3--3-3--5--5--5-5--5-5-5-5-5-5-5--------
E|--------------------------------------------------------------

yu ganda ni ku shi mi
E|----------------------------------
B|-----------------------------------
G|----------------------------------
D|--3-3--3-3--5--5-5-5--5----------
A|--1-1--1-1--3--3-3-3--3-----------
E|-------------------------------------


o mi ta
E|----------------------------------------
B|---------------------------------------
G|---------------------------------------
D|------5-4------5-4--7-5-4----------------
A|--5-0-----4--0------------5--------------
E|----------------------------------------

sonna sekai na n te mo u na mi mo
E|-------------------------------------------------------------
B|-------------------------------------------------------------
G|--------------------------------------------------------------
D|--3-3--3-3--5--5-5-5--5--5-5--7--7--7-7--7-7-7-7-7-7-7--------
A|--1-1--1-1--3--3-3-3--3--3-3--5--5--5-5--5-5-5-5-5-5-5--------
E|--------------------------------------------------------------

mi ta ku na i yo nani mo! nani mo!
E|---------------------------------x-----------------
B|---------------------------------2-----------------
G|---------------------------------2-----------------
D|--3-3--3-3--5--5-5-5--5--5-5-----2-----------------
A|--1-1--1-1--3--3-3-3--3--3-3-----0------------------
E|---------------------------------x-----------------


Ken Solo

na ni mo
E|------------------------------------14-15-17----------------
B|---------------------------14-15-17------------------------
G|------------------------------------------------------------
D|------11-11-12--11-12-13-16--------------------------------
A|-12-14--------14--------------------------------------------
E|------------------------------------------------------------


E|--15-17-15-15-14-15--14-12-10---10-----------------------------------
B|------------------------------14--14-12-10---12---------------------
G|-------------------------------------------14--14-12-11----11-------
D|--------------------------------------------------------14---------
A|------------------------------------------------------------------
E|--------------------------------------------------------------------


E|---------------------------------------------------
B|------------------------14-15----14-15-17--17------
G|-----------------16--16-------16--------------------
D|--14--14--14--13------------------------------------
A|---------------------------------------------------
E|---------------------------------------------------

E|-----17---------17-----------17-------------14-15-1717---19--
B|--17---17-17-17----17-17--17----17-17-17-17------------------
G|--------------------------------------------------------------
D|--------------------------------------------------------------
A|--------------------------------------------------------------
E|--------------------------------------------------------------

so re de mo
E|-19--21--21---21----21-21-21----21---21-------------------
B|--------------------------------------------------------
G|---------------------------------------------------------
D|---------------------------------------------------------
A|----------------------------------------------------------
E|----------------------------------------------------------

Repetir Donde ***
Despues de repetir todo( *** )
Continuar aqui :
so gu a i o

E|--2---2--2--3---0--2--------------------------
B|--3---3--3--3---3--3-------------------------
G|--2---2--2--2---2--2-------------------------
D|--0---0--0--0---0--0--4----2--------------------
A|----------------------------------------
E|---------------------------------------

to ki wa ka na
E|----------------------------------------
B|---------------------------------------
G|---------------------------------------
D|-1-1--1--1---1--4--4-4-4-4--7-7-7-4-------------------
A|-2-2--2--2---2--6--6-6-6-6------------------------
E|----------------------------------------

Entonces repetir ###
Despues de repetir todo ###,
Entonces comienza el final aqui:

i o sa sa ge you...........
E|------------------------------------10-----------10---------------
B|--2--2--2--3---3---2---2---------------10-----------10------------
G|--2--2--2--2---2---2---2---2---11---------11-12--------11---11----
D|--2--2--2--2---2---2---2-----------------------------------------
A|--0--0--0--0---0---0---0------------------------------------------
E|-----------------------------------------------------------------