Make your own free website on Tripod.com

"BLURRY EYES"
(From The fourth Ave Cafe)
Guitar 1
E||-----------------5------0----|---------5------0----|---------------------|
B||----------3------------------|--2------------------|--3------0------3----|
G||-----------------------------|---------------------|---------------------|
D||-----------------------------|---------------------|---------------------|
A||-----------------------------|---------------------|---------------------|
E||-----------------------------|---------------------|---------------------|

--5------------------|--3------10------------|----------10------------|
---------3------0----|-----------------10----|------------------10----|
---------------------|-----------------------|--11--------------------|
---------------------|-----------------------|------------------------|
---------------------|-----------------------|------------------------|
---------------------|-----------------------|------------------------|

--9---------------12----|----10----10--10--10--9------|------5--------------|
--10------10------10----|----10----10--10--10--10-----|-------------5-------|
----------9-------------|--------------------------7--|------------------6--|
------------------------|-----------------------------|---------------------|
------------------------|-----------------------------|---------------------|
------------------------|-----------------------------|---------------------

------5--------------|--------------------|--5----------------3--|
-------------5----3--|-------------3------|---------3------0-----|
---------------------|------4-------------|----------------------|
---------------------|--------------------|----------------------|
---------------------|--------------------|----------------------|
---------------------|--------------------|----------------------|

------10----------------|------10------------9---|--------------12------|
--------------10--------|--------------10----10--|------10------10------|
--------------------11--|------------------------|------9---------------|
------------------------|------------------------|----------------------|
------------------------|------------------------|----------------------|
------------------------|------------------------|----------------------|

--10------9---------------|------5--------------|------5--------------|
--10------10--------------|-------------5-------|-------------5----3--|
----------------11--9--7--|------------------6--|---------------------|
--------------------------|---------------------|---------------------|
--------------------------|---------------------|---------------------|
--------------------------|---------------------|---------------------|

--------------------|--5----------------3--|------10----------------|
-------------3------|---------3------0-----|--------------10--------|
------4-------------|----------------------|--------------------11--|
--------------------|----------------------|------------------------|
--------------------|----------------------|------------------------|
--------------------|----------------------|------------------------|

------10------------9---|--------------12------|--10------9-----------|
--------------10----10--|------10------10------|--10------10----------|
------------------------|------9---------------|----------------------|
------------------------|----------------------|----------------------|
------------------------|----------------------|----------------------|
------------------------|----------------------|----------------------|